(home) (bottom)

Return to Stupidland: Transcriptions

S = sound file L = lyrics T = transcription

X L T 03 "Life"

bass:
part 1          part 2
--------------- --------------------------------
--------------- ----3-2-------2-----3-2---------
----2-------3-- --3-------2-3-----3-----3-2-----
0-------0------ 0-------0-------0-----------3-2-
       (repeat)                         (repeat)
			 
* * * * * * * * * * * * * * * * * * * * * * * * * * * * * * * * * * * ^top^

S L T 09 "Mr. Dead"

guitar:
Em C G F
----0-------0-------2-------1---
----0-------1-------2-------1---
----0---0-0-0-0-----0-------2---
2-2-2-2-2-2-2-2-0-0-0-0-3-3-3-3-
2-2-2-2-3-3-3-3-X-X-X-X-3-3-3-3-
0-0-0-0---------3-3-3-3-1-1-1-1-

|<- - - - - - - - - - - - - -17 times- - - - - - - - - - - - - >|
0---0---0---0---0---0---0---0---0---0---0---0---0---0---0---0---0
2---2---2---2---2---2---2---2---2---2---2---2---2---2---2---2---2
0---0---0---0---0---0---0---0---0---0---0---0---0---0---0---0---0
-----------------------------------------------------------------
-----------------------------------------------------------------
-----------------------------------------------------------------

There is no bassline.

* * * * * * * * * * * * * * * * * * * * * * * * * * * * * * * * * * * ^top^

X L T 15 "My Vacation in the Hotel"

bass:
----4---2-------3-------4---2-------3---
2-2---3---4-3-1---1-2-2---3---4-3-1---1-
----------------------------------------
----------------------------------------

guitar:
0-0-----0-3-0-------0-0-------------0-3-
0-0-----------3-0---0-0---------0-3-----
1-1---------------1-1-1-----1-3---------
0-0-----------------0-0-----------------
2-2-----------------2-2-----------------
3-3-----------------3-3-----------------

* * * * * * * * * * * * * * * * * * * * * * * * * * * * * * * * * * * ^top^

S L T 33 "Have a Good Night"

 bass:
--------------------------------
--------------------------------
------------------------0-2-----
0-0-2-3-0-0-2-3-0-0-3-2-----3-2-

guitar (sort of):
----3-0-------0-----3-0---------
------------3-----------2---2---
1-1-----1-1-----1-1-----2---2---
2-2-----2-2-----2-2-----2---2---
2-2-----2-2-----2-2-----0---0---
0-0-----0-0-----0-0-------------

* * * * * * * * * * * * * * * * * * * * * * * * * * * * * * * * * * * ^top^
top