(home) (bottom)

Wrongtastic: Transcriptions

S = sound file L = lyrics T = transcription

X L T 04 "Don't You Worry"

guitar:
6-7-6-7----------------------
6-7-6-7----------------------
------------8---8---7--------
----------------------9------
-----------------------------
-----------------------------

no bass.

* * * * * * * * * * * * * * * * * * * * * * * * * * * * * * * * * * * ^top^

X L T 05 "Ear Eye"

guitar:
------------------------
8/9-9---9---------------
8/9-9---9---------------
8/9-9---9---------------
6/7-7---7---------------
------------0-----------

no bass.

* * * * * * * * * * * * * * * * * * * * * * * * * * * * * * * * * * * ^top^

X L T 07 "Milkin' the Barn"

bass tab with guitar chords:
    C                               F
--------------------------------------------------------------------
----------------------------------0-3---------------3---5-------0-3-
--0-3---------------3-----------3-----------3---------------3-------
3-----------3---------------3---------------------------------------
| + / + | + | + | + / + | + | + | + / + | + | + | + / + | + | + | + 
                                          i wake up at five thirtyo  

    C                               E
    ----------------------------------------------------------------
    ----------------------------------------------------------------
    3---------------3---------0-2-----------2-------------------0-2-
    --------3---------------3-----0-0---------------0-----0-3-------
    / + | + | + | + / + | + | + | + / + | + | + | + / + | + | + | + 
    clock                           just in time      to heeear the 

    C                               F
    ----------------------------------------------------------------
    ----------------------------------------3---------------3---0---
    3---------------3-----------0---3---------------3---------------
    --------3---------------3---------------------------------------
    / + | + | + | + / + | + | + | + / + | + | + | + / + | + | + | + 
    cock                  a-doodledydoodadoodoot doo

    C                               A                           
    ----------------------------------------------------------------
    ------------------------------------------------2---------------
    3---------------3-------0---0-3-0-------0-----------------------
    --------3-----------------3---------------------------3---------
    / + | + | + | + / + | + | + | + / + | + | + | + / + | + | + | + 
                                      i go osidestrtmlknthbarn      

    C                               Em
    ----------------------------------------------------------------
    ------------0-------------------------------------------------0-
    3-------------3-0---0-2-0-------0---2---------0-2---------------
    ------------------0---------0-----------0---------------0-------
    / + | + | + | + / + | + | + | + / + | + | + | + / + | + | + | + 
     the cowsrflynawaaay again  oh  darn

    Am                              Em                              
    ----------------------------------------------------------------
    2-------------0-2-----------------------------------------------
    --------0---------------0-----0-2-------------0-2-------------0-
    ----------------------------------------2---------------0-------
    / + | + | + | + / + | + | + | + / + | + | + | + / + | + | + | + 

    C               G               C
    ----------------------------------------------------------------
    ----3---2---2---------------------------------------------------
    3-----------------2-222-2---2-2-3---------------3-----------0-2-
    ----------------------------------------3---------------3-------
    / + | + | + | + / + | + | + | + / + | + | + | + / + | + | + | + 
                                pigyand chiken      poopsmlsgood to

                    F                               G               
    ----------------------------------------------------------------
    --------3-------------------------------------------------------
    3---------------3---------------3-------------------2---3---2---
    ------------------------3---------------3-------3-----3---3-----
    / + | + | + | + / + | + | + | + / + | + | + | + / + | + | + | + 
    me                        ifi cdjustjumpoverthatfenci'dbeeee  

    C
    --------------------------------
    --------------------------------
    3-----------------3-----0-2-3---
    --------------------3-----------
    / + | + | + | +
  freeeeeeee   like bowels in the outhouse

* * * * * * * * * * * * * * * * * * * * * * * * * * * * * * * * * * * ^top^

X L T 10 "Space Zombies"

guitar (with delay):
--------------------------------
----------------5---------------
------------6-------------------
--------4-----------------------
----2---------------------------
0-------------------------------

* * * * * * * * * * * * * * * * * * * * * * * * * * * * * * * * * * * ^top^

X L T 11 "Killing My Dead Friend"

guitar:
5-0---0---0-0---5-0---0---0-0---0---0-0---0-0---0---0-0---0-0---
0-0---5---5-5---0-0---5---5-5---3---3-3---3-3---5---5-5---5-5---
6---6-6---6-6---6---6-6---6-6---4---4-4---4-4---6---6-6---6-6---
7---7-------7---7---7-------7---5---5-5---5-5---7---7-7---7-7---
7---7-------7---7---7-------7---5---5-5---5-5---7---7-7---7-7---
----------------------------------------------------------------

other part:
0-0-----0-0-0-0-0-0-----0------
3-3-1-1-0-0-0-0-3-3-1-1-0------
4-4-2-2-1-1-1-1-4-4-2-2-1------
5-5-3-3-2-2-2-2-5-5-3-3-2------
5-5-3-3-2-2-2-2-5-5-3-3-2------
--------0-0-0-0---------0------

a second guitar plays "harmony"
the bass is kind of fake.

* * * * * * * * * * * * * * * * * * * * * * * * * * * * * * * * * * * ^top^

X L T 13 "Fish Belly Darkness"

guitar:
--------------------------------------------------------------------
12--12--------------------------12-12-12-12-12-12-13-13-10-10-10-10-
--------12--12--11--11--9-------------------------------------------
9---9---------------------------9--9--9--9--9--9--10-10-7--7--7--7--
--------10--10--9---9---7-------------------------------------------
--------------------------------------------------------------------

* * * * * * * * * * * * * * * * * * * * * * * * * * * * * * * * * * * ^top^

X L T 16 "Robot Horde"

guitar:
--------------------------------
--------------------------------
--------------------------------
--------------------------------
--------0---0-------3---0---0---
0---3-----------0---------------

the bass is "the same."

* * * * * * * * * * * * * * * * * * * * * * * * * * * * * * * * * * * ^top^

X L T 22 "Turn Down the Microphone"

guitar:
------------
7-----------
7--6--------
7--7--------
5--7--------
---5--------

no bass.

* * * * * * * * * * * * * * * * * * * * * * * * * * * * * * * * * * * ^top^

X L T 47 "The Joy of Piracy"

guitar:
---------------------------------
---------------------------------
----7-6-5-4----------------------
------------7-6-5----------------
7--------------------------------
---------------------------------

* * * * * * * * * * * * * * * * * * * * * * * * * * * * * * * * * * * ^top^
top